Tuna de derecho de valladolid



Descargar 5.66 Mb.
Página61/64
Fecha de conversión14.01.2019
Tamaño5.66 Mb.
1   ...   56   57   58   59   60   61   62   63   64

TODA UNA VIDA

Em E7 Am

Toda una vida me estaria contigo

Em

no me importa en que forma



E7

ni donde ni como

Em

pero junto a ti


Em E7 Am

Toda una vida te estararia mimando

Em

te estaria cuidando



E7

como cuido mi vida

Em

que la vivo por ti


D

no me cansaria de decirte siempre

G

pero siempre siempre



E7

que eres mi vida

Em

ansiedad, angustia y desesperacion


Em E7 Am

toda una vida me estaria contigo

Em

no me importa en que forma



E7

ni donde ni como

Em

pero junto a ti


INDICE

TRES REGALOS

La- La7 Re-

Espero, no voy a marcharme

La- Mi+


no voy a alejarme

La- Mi+(A)

sin antes decir.
La- La7 Re-

Que lloro, que sufro al mirarte

La- Mi+

tan cerca tus manos



La+ Fa#- Si- Mi7

y sin poder decir.


(en este pedacito es el círculo de La: La+,Fa#-,Si- y Mi7)

La+...(se sigue el círculo de la)

Quiereme por que ya creo merecerte

por que ya logre ponerte

en mi alma tu más grande altar

ay, pero quiereme (hay quiereme)

solo basta una sonrisa

para hacerte tres regalos (de amor)

son el cielo, la luna y el mar. La7
La+

Yo que soñe

Re+

con tener una reina



re- La+

que mandara en mis adentros

Fa#- Si- Mi7

ya no tengo que buscarla por que en tí.....


(en lo que sigue se sigue con el círculo de La)
La+......(círculo de la)

todo lo encuentro

ya no mas

dime que si

solo basta una sonrisa

para hacerte tres regalos (de amor)

son el cielo la una y el mar (3)

Nota: Espero que les guste, es una canción muy

romántica y especial para serenatas.
INDICE

TRIUNFAMOS

e---------8---12--10--9-----|-------------10---8--7---8--|

b-----10------13--12-11-----|--------12---12--10--9--10--|

g--9------------------------|-----12---------------------|

d---------------------------|--12------------------------|

a---------------------------|----------------------------|

e---------------------------|----------------------------|
e------------8---7--8---|-----------10---8---7----5--|

b-------10--10---9--10--|-------9---12--10---9----5--|

g-----10----------------|-----9-------------------5--|

d---10------------------|---9------------------------|

a-----------------------|----------------------------|

e-----------------------|----------------------------|


e---5--5--4-------------|

b---6-----5---6--5------|

g-------------7--6---7--|

d--------------------7--|

a-----------------------|

e-----------------------|

Lam Rem

Une tu voz a mi voz



Lam

para gritar que triunfamos

Sol

el mundo ya se cansó



Fa

y aquí seguimos los dos

Mi7

sin renunciar ni ocultarnos


(es igual la parte, mismas notas)
Por que ocultar nuestro amor

será tapar con un dedo

la luz inmensa del sol

negar la gracia de Dios

negar que lo blanco es negro
Coro:

Rem


Amor nada nos pudo separar

Lam


luchamos contra toda incomprensión

Mi7


del cuento ya no hay nada que contar

Lam


triunfamos por la fuerza del amor
(mismas notas)

Une tu voz a mi voz

para gritar que vencimos

y si es pecado el amor

que el cielo de explicación

por que es mandato divino INDICE



UNA COPA MÁS

Dm

Una copa más



A7

que brindo al despedirnos,

Dm

una copa más



A7

que nos hará olvidar.

D7

Una copa más



Gm

tal vez un poco amarga

Dm

por nuestro gran cariño



A7

que nunca volverá,

Dm

una copa más.


C7

Es la ley de la vida

F

el nacer y morir,



A7

nuestro amor fue tan grande

Dm

y dejó de existir.



D7

Una copa más

Gm

tal vez un poco amarga



Dm

por nuestro gran cariño

A7

que nunca volverá,



Dm

una copa más.


INDICE

YA ES MUY TARDE

Introduccíón:


|--------0-1-1-1--1-1-0-0-0---0-0--------------------------|

|--0-1-3---------3-3-3-------1-1-1-3-3-3--0-3-0-3-0--1-1-1-|

|-2--------------------------------------------------------|

|----------------------------------------------------------|

|----------------------------------------------------------|

|----------------------------------------------------------|


|--------0-1-1-1--0-0-0---------------------0-1-0---------|

|--0-1-3----3-3-3--1-1-1-3-0-3-0-3-0-1------------3-1-0---|

|-2-----------------------------------------------------2-|

|---------------------------------------------------------|

|---------------------------------------------------------|

|---------------------------------------------------------|


Am

Ya es muy tarde


para remediar

E7

todo lo que ha pasado.


Ya es muy tarde
para revivir

Am

nuestro viejo querer.



A7

Preferible para ti

Dm

que olvides el pasado



Am

ya es muy tarde

B7

si tratas de volver



E7 Am

resignate a perder.

G C

En muchas ocasiones te busqué



E7 Am

y a tus plantas de rodillas imploré

A7

ya no insistas en reunir



Dm

tu vida con la mía.


Am

Ya es muy tarde si tratas de volver

B7 E7

resignate a perder.



Am

Ya es muy tarde

B7

si tratas de volver



B7 E7

resignate a perder. INDICE


1   ...   56   57   58   59   60   61   62   63   64


La base de datos está protegida por derechos de autor ©bazica.org 2016
enviar mensaje

    Página principal